METALLICA SONG INFO

Songtexte, Hörproben, Videos, Interpretationen und viele Hintergrundinfos zu sämtlichen Metallica Songs und Covers der Band.

Metallica Metal Militia

METALLICA - Metal Militia


WRITTEN BY:Hetfield/Ulrich/Mustaine
LÄNGE:05:10
ALBUM:Kill Em All


ZUM SONG:



ORIGINAL LYRICS


ÜBERSETZUNG


Metal Militia
(Hetfield/Ulrich/Mustaine)

Thunder and lightning, the gods take revenge
Senseless destruction
Victims of fury are cowardly now
Running for safety
Stabbing the harlot to pay for her sins
Leaving the virgin
Suicide running as if it were free
Ripping and tearing

Oh, through the mist and the madness
We're trying to get the message to you
Metal militia
Metal militia
Metal militia

Chained and shadowed to be left behind
Nine and one thousand
Metal militia, for your sacrifice
Ironclad soldiers
Join or be conquered, the law of the land
What will befall you?
The metalization of your inner soul
Twisting and turning

Oh, through the mist and the madness
We're trying to get the message to you
Metal militia
Metal militia
Metal militia

We are as one, yes, we all are the same
Fighting for one cause
Leather and metal are our uniforms
Protecting what we are
Joining together to take on the world
With our heavy metal
Spreading the message to everyone here
Come let yourself go

Oh, through the mist and the madness
We're trying to get the message to you
Metal militia
Metal militia
Metal militia
Metal Militia
(Hetfield/Ulrich/Mustaine)

Donner und Blitze, die Götter nehmen Rache
Sinnlose Zerstörung
Opfer der Wut sind jetzt feige
Suchen nach Sicherheit
Die Huren werden erstochen, um für ihre Sünden zu zahlen
Die Jungfrauen werden verschont
Selbstmord scheint die Lösung zu sein
Reißen und Zerreißen

Durch Nebel und Wahnsinns
Wir versuchen Euch die Message zu vermitteln
Metal Miliz
Metal Miliz
Metal Miliz

In Ketten gelegt und beschattet
Neun und Eintausend
Die Metal Miliz opfert für dich
In Eisen gekleidete Soldaten
Trete uns bei oder werde erobert, das Gesetz des Landes
Was wird sich bei dir ereignen
Die Metalisation deiner Seele
Drehen Verdrehen

Durch Nebel und Wahnsinns
Wir versuchen Euch die Message zu vermitteln
Metal Miliz
Metal Miliz
Metal Miliz

Wir alle sind wie eins, wir alle sind gleich
Kämpfen für die gleiche Sache
Leder und Metall sind unsere Uniformen
Beschützen was wir sind
Verbündet um die Welt zu übernehmen
mit unserem Heavy Metal
Wir verbreiten unsere Message an alle
Komm und lass dich gehen

Durch Nebel und Wahnsinns
Wir versuchen Euch die Message zu vermitteln
Metal Miliz
Metal Miliz
Metal Miliz


GUITAR TABS


BASS TABS


Date: Tue, 5 Dec 1995 16:46:39 -0600 (CST)
From: gregh@tcs.itis.com (Greg and or Paul Halvorson)
Subject: TAB: Metal Militia by Metallica

Metal Militia
By Metallica
from Kill 'em All

This is the newest version of this tab. I found 2 errors in it, and added
another riff to it (one played during verses).

Tabbed By Paul Halvorson

Intro
||-----------------------------------------------------------------------------
||-----------------------------------------------------------------------------
||-----------------------------------------------------------------------------
||-----------------------------------------------------------------------------
||-3/5~~~-----8\7---------------------------------------------------5--7-------
||-1/3~~~-----6\5---0--0--0--0--0--0--0--0--0--0--0--0--0--0--0--0--3--5-------



-------------------------------------------------------------------------------
-------------------------------------------------------------------------------
-------------------------------------------------------------------------------
-------------------------------------------------------------------------------
------------------------------------------------8--7---------------------------
0--0--0--0--0--0--0--0--0--0--0--0--0--0--0--0--6--5-----0--0--0--0--0--0------



------------------------------------------------------------------------||
------------------------------------------------------------------------||
------------------------------------------------------------------------||
------------------------------------------------------------------------||
------------------------------5--7-----------------------------8--7--5--||
0--0--0--0--0--0--0--0--0--0--3--5-----0--0--0--0--0--0--0--0--6--5--3--||


Before Main Riff
||----------------------------------------||
||----------------------------------------||
||----------------------------------------||
||----------------------------------------||
||-8--7--5-----8--7--5-----8--7--5-----7--||
||-6--5--3-----6--5--3-----6--5--3-----5--||


Repeat a few times. Not sure about this part.
||-------------------------------||------------------------||
||-------------------------------||------------------------||
||*-----------------------------*||---3-----2--------------||
||*-----7-----5-----2-----1--0--*||---1--5--0-----x--x--2--||
||---0-----0-----0-----0---------||------3--------x--x--0--||
||-------------------------------||------------------------||


o-/|-o
o-/ |-o
o-/__|-o
|--|
|--|
|--|
|--|
|--|
|--|
|--|
|--|
/ \
/ ~~ \
/ ~~ \
/ /\ \
/ / \ \
/ / Paul \ \
/ \



===============================================================================
== TABLATURE EXPLANATION ==
===============================================================================

---------- ----------
----5h8--- Hammeron ----(8)--- Ghost Note
---------- ----------
----5p8--- Pulloff ----------

---------- ----------
----5/8--- Slide Up -----x---- Dead Note
---------- ----------
----5\8--- Slide Down ----------

---------- ||------|| Repeat Start & End
----5~~~-- Vibrato ||*----*||
---------- ||*----*||
---------- ||------||

Rhythm:
w = whole note W = dotted whole
h = half note H = dotted half
q = quarter note Q = dotted quarter
e = eighth note E = dotted eighth
s = sixteenth note S = dotted sixteenth
^ = triplet

===============================================================================
== Created with a shareware version of the BUCKET 'O TAB ==
== tablature creation software for Windows ==
== For more information: ==
== email: gse@ocsystems.com ==
== US Mail: The Bucket, 3176-B5 Summit Square Dr., Oakton, VA 22124 ==
===============================================================================
Newsgroups: rec.music.makers.bass
Subject: BTAB: Metallica - Kill 'em all
From: wfpol@cs.ruu.nl (Wilbert Pol)


The people who transcribed it :

Jeff Jacobson - Anesthesia - Pulling Teeth
Andy Aledort - Jump in the Fire
Steve Gorenberg - the rest

The only thing I've done is converting them to ascii.

I've put all note lengths below the measures, they are :
w - whole note
h - half note
q - quarter note
e - eigth note
s - sixteenth note
t - thirty-second note
l - long note ('fermate' sign)
x+y - play note with length x+y

/ - a couple of these mean you have to fill the length with
1. eight notes (1 slash) or
2. sixteenth notes (2 slashes) or
3. thirty-second notes (3 slashes)

R - in the tab denotes a rest.
x - an undefined or muted note.
[ 3 ] - a triplet

/ - slide up
/(X) - slide up to fret X, but don't pick X
\ - slide down
\(X) - slide down to fret X, but don't pick X
T - tap note
Harm - harmonic
A.H. - Artificial harmonic

inside bar :
p - pull off
h - hammer on
bx - bend string x notes up
bx r - bend string x notes up and release string

a note without a length indication, means a 'ghost' note (The little notes
that occur in sheet music sometimes).

cresc. - crescendo (Play louder and louder, 'fade in')

||-- --||
||-o o-|| - a repeat
||-o o-||
||-- --||

| X |
|-----| - X bar rest
|-----|
| |

|-----|
| % | - repeat previous bar
|-----|
|-----|

Have fun,
Wilbert Pol

-----------------------------------------------------------------------------

METAL MILITIA
-------------

168 bpm

|---|| 3 |---------|------|---|---|---------||
|---||-----|---------|------|---|---|---------||
|-R-||-----|-R-------|---R--|-R-|-R-|-R-------||
|---|| |---6-5-3-|-0----|---|---|---6-5-3-||
l h q q q q h. w w h q q q
[ 3 ] [ 3 ]

||------------------------------|----------------------------|
||-o----------------------------|----------------------------|
||-o----------------------------|----------------------------|
||---0-0-0-0-0-0-0-0-0-0-0-3--5-|-0-0-0-0-0-0-0-0-0-0-0-6--5-|
s s s s s s s s s s s e. e s s s s s s s s s s s e. e

|1,2,3. |4. 2/4
|----------------------------|-------------------------||-----------------|
|----------------------------|-----------------------o-||-----------------|
|----------------------------|-----------------------o-||-7-7-7-7-7-7-7-7-|
|-0-0-0-0-0-0-0-0-0-0-0-3--5-|-0-0-0-0-0-0-0-0-6-5-3---||-----------------|
s s s s s s s s s s s e. e s s s s s s s s q q q s s s s s s s s
[ 3 ]
4/4
|-------------|---|| 4 |------|-----|-----|---------------||
|-------------|---||-----|---R--| % | % |---------------||
|-------------|-0-||-----|-0----|-----|-----|-6---3---------||
|-6-5-3-6-5-3-|---|| |------|-----|-----|---6-----3-5-6-||
q q q q q q w q h. q q q+e e e e
[ 3 ] [ 3 ] [ 3 ]

||----------------------|-----|-----|-----------------||
||-o---7---5------------| % | % |---------------o-||
||-o-0---0---0-7-0-6--5-|-----|-----|-6---3---------o-||
||----------------------|-----|-----|---6-----3-5-6---||
e e s e s e s e. e q q q+e e e e
[ 3 ]

Verse 1
|---------------------------------|-----|-----|---------------|
|---------------------------------| % | % |---------------|
|-0-0-0-0-0-0-0-0-0-0-0-0-0-0-0-0-|-----|-----|-6---3---------|
|---------------------------------|-----|-----|---6-----3-5-6-|
s s s s s s s s s s s s s s s s q q q+e e e e
[ 3 ]

fig.1 end fig.1 3 times
||----------------------------|-----|-----|-----------------||
||-o--------------------------| % | % |---------------o-||
||-o-0-0-0-0-0-0-0-0-7-0-6--5-|-----|-----|-6---3---------o-||
||----------------------------|-----|-----|---6-----3-5-6---||
s s s s s s s s e s e. e q q q+e e e e
[ 3 ]

Pre-chorus
|---------------------|-----------------|---------------------|
|---------------------|-----------------|---------------------|
|-5-5-5-5-5-5-5-5-5-5-|-3-3-3-3-3-2-0-0-|-5-5-5-5-5-5-5-5-5-5-|
|---------------------|-----------------|---------------------|
e e s s e e e s s e e e s s e q e e e e s s e e e s s e

Chorus
|----------------||------------------------------|
|----------------||-o----------------------------|
|-3-3-3-3-3-2-3/-||-o-0-0-0-0-0-0-0-0-0-0-0-3--5-|
|----------------||------------------------------|
e e s s e q h s s s s s s s s s s s e. e
[3]

|----------------------------|----------------------------|
|----------------------------|----------------------------|
|-0-0-0-0-0-0-0-0-0-0-0-6--5-|-0-0-0-0-0-0-0-0-0-0-0-3--5-|
|----------------------------|----------------------------|
s s s s s s s s s s s e. e s s s s s s s s s s s e. e

|1,2,3. |4. 2/4 4/4
|-------------------------||-----------------|-------------|---|
|-----------------------o-||-7-7-7-7-7-7-7-7-|-------------|---|
|-0-0-0-0-0-0-0-0-6-5-3-o-||-----------------|-6-5-3-6-5-3-|-5-|
|-------------------------||-----------------|-------------|---|
s s s s s s s s q q q s s s s s s s s q q q q q q w
[ 3 ] [ 3 ] [ 3 ]

|---------------------------------|-----|-----|---------------|
|---------------------------------| % | % |---------------|
|-0-0-0-0-0-0-0-0-0-0-0-0-0-0-0-0-|-----|-----|-6---3---------|
|---------------------------------|-----|-----|---6-----3-5-6-|
s s s s s s s s s s s s s s s s q q q+e e e e
[ 3 ]

|---------------------------------|-----|-------------------------------|
|---------------------------------| % |---7---7---7---7---7---7---7---|
|-0-0-0-0-0-0-0-0-0-0-0-0-0-0-0-0-|-----|-0---0---0---0---0---0---0---0-|
|---------------------------------|-----|-------------------------------|
s s s s s s s s s s s s s s s s e s s s s s s s s s s s s s s

Verse 2 Pre-chorus
|---------------|| ||---------------------|
|---------------|| play fig.1 4 times ||---------------------|
|-6---3---------|| ||-5-5-5-5-5-5-5-5-5-5-|
|---6-----3-5-6-|| ||---------------------|
q q q+e e e e e e s s e e e s s e
[ 3 ]

|-----------------|---------------------|----------------||
|-----------------|---------------------|----------------||
|-3-3-3-3-3-2-0-0-|-5-5-5-5-5-5-5-5-5-5-|-3-3-3-3-3-2-3/-||
|-----------------|---------------------|----------------||
e e s s e q e e e e s s e e e s s e e e s s e q h
[3]

Chorus
||------------------------------|----------------------------|
||-o----------------------------|----------------------------|
||-o-0-0-0-0-0-0-0-0-0-0-0-3--5-|-0-0-0-0-0-0-0-0-0-0-0-6--5-|
||------------------------------|----------------------------|
s s s s s s s s s s s e. e s s s s s s s s s s s e. e

|1,2,3.
|----------------------------|-------------------------||
|----------------------------|-----------------------o-||
|-0-0-0-0-0-0-0-0-0-0-0-3--5-|-0-0-0-0-0-0-0-0-6-5-3-o-||
|----------------------------|-------------------------||
s s s s s s s s s s s e. e s s s s s s s s q q q
[ 3 ]

|4. 2/4 4/4 3/4
|-----------------|-------------|---||----||------------------------------|
|-7-7-7-7-7-7-7-7-|-------------|---||-R--||-o----------------------------|
|-----------------|-6-5-3-6-5-3-|-5-||----||-o-----------------------5--7-|
|-----------------|-------------|---||----||---7-7-7-7-7-7-7-7-7-7-7------|
s s s s s s s s q q q q q q w h. s s s s s s s s s s s e. e
[ 3 ] [ 3 ]

|----------------------------|----------------------------|
|----------------------------|----------------------------|
|-----------------------8--7-|-----------------------5--7-|
|-7-7-7-7-7-7-7-7-7-7-7------|-7-7-7-7-7-7-7-7-7-7-7------|
s s s s s s s s s s s e. e s s s s s s s s s s s e. e

|1,2,3. |4. 2/4 4/4
|-------------------------||-----------------|-------------|---||
|-----------------------o-||-----------------|-------------|---||
|-----------------8-7-5-o-||-----------------|-8-7-5-8-7-5-|-7-||
|-7-7-7-7-7-7-7-7---------||-7-7-7-7-7-7-7-7-|-------------|---||
s s s s s s s s q q q s s s s s s s s q q q q q q w
[ 3 ] [ 3 ] [ 3 ]

160 bpm
|-------------------------|-----|-----|---------------------|
|-7-----7-----7-----7-----| % | % |-7-----7-----7-----7-|
|---0-0---0-0---0-0---0-0-|-----|-----|---0-0---0-0---0-0---|
|-------------------------|-----|-----|---------------------|
e s s e s s e s s e s s e s s e s s e s s q

4 times 4 times 2 times
||----------------------|||----------------------|||----------------------||
||-o------------------o-|||-o------------------o-|||-o------------------o-||
||-o-6-----3----------o-|||-o-8-----5----------o-|||-o-9-----6----------o-||
||------6-----3-3-5-1---|||------8-----5-5-7-3---|||------9-----6-6-8-4---||
e. e. e. s e e e e. e. e. s e e e e. e. e. s e e e

2 times
||----------------------||-----------------------|-----------------------|
||-o------------------o-||-----------------------|-----------------------|
||-o-10----7----------o-||-7-7-5-5---------------|-----------------------|
||------10----7-7-9-5---||---------8-8-7-7-5-7-8-|-8-8-7-7-5-5-3-3-2-3-5-|
e. e. e. s e e e s e s e s e s e s s e s e s e s e s e s s e

Tempo I
|---||-----------------------------------|-----|-----|
|---||-o---------------------------------| % | % |
|---||-o-0-0-0-0-0-0-0-0-0-0-0-0-0-0-0-0-|-----|-----|
|-0-||-----------------------------------|-----|-----|
w s s s s s s s s s s s s s s s s

2 times Verse 3 Pre-chorus
|-----------------|| ||---------------------|
|---------------o-|| play fig.1 4 times ||---------------------|
|-6---3---------o-|| ||-5-5-5-5-5-5-5-5-5-5-|
|---6-----3-5-6---|| ||---------------------|
q q q+e e e e e e s s e e e s s e
[ 3 ]

let ring
|-----------------|-----------7-|----------------||
|-----------------|-----7-------|----------------||
|-3-3-3-3-3-2-0-0-|-5-5---5-5---|-3-3-3-3-3-2-3/-||
|-----------------|-------------|----------------||
e e s s e q e e e e s s e h e e s s e q h
[3]

Chorus
||------------------------------|----------------------------|
||-o----------------------------|----------------------------|
||-o-0-0-0-0-0-0-0-0-0-0-0-3--5-|-0-0-0-0-0-0-0-0-0-0-0-6--5-|
||------------------------------|----------------------------|
s s s s s s s s s s s e. e s s s s s s s s s s s e. e

repeat & fade
|----------------------------|-------------------------||
|----------------------------|-----------------------o-||
|-0-0-0-0-0-0-0-0-0-0-0-3--5-|-0-0-0-0-0-0-0-0-6-5-3-o-||
|----------------------------|-------------------------||
s s s s s s s s s s s e. e s s s s s s s s q q q
[ 3 ]


Metal Militia VIDEOS



Metal Militia LIVE PERFORMANCES

Metallica haben Metal Militia bis heute 87 mal live gespielt.

DATE LOCATION TOURNAME
2016-12-15 Los Angeles, CA, USA
The Fonda Theatre
WorldWired Tour
2016-04-16 Berkely, CA, USA
Rasputin Music
Record Store Day
2015-08-20 Bergen, Norwegen
Bergenhus Fortress
European Summer Vacation
2015-06-06 Austin, TX, USA
X Games @ Circuit of the Americas
X-Games
2015-06-02 Mailand, Italien
Sonisphere @ Arena Fiera Rho
European Summer Vacation
2015-05-31 München, Deutschland
Rockavaria @ Olympiapark München
European Summer Vacation
2015-05-29 Gelsenkirchen, Deutschland
Rock im Revier @ Veltins Arena
European Summer Vacation
2013-06-08 Detroit, MI, USA
Belle Isle
Orion Music + More Festival
2013-03-04 Perth, Australien
Claremont Showgrounds
Soundwave Festival
2011-12-10 San Francisco, CA, USA
The Fillmore
30th Anniversary
2004-10-04 Montreal, Kanada
Centre Bell
Madly in Anger with the World Tour
2004-08-25 Fort Wayne, IN, USA
Allen County War Memorial Coliseum
Madly in Anger with the World Tour
2004-06-29 Padova, Italien
Stadio Euganeo
Madly in Anger with the World Tour
2004-06-10 Gelsenkirchen, Deutschland
Arena AufSchalke
Madly in Anger with the World Tour
2004-05-01 Cincinnati, OH, USA
U.S. Bank Arena
Madly in Anger with the World Tour
2004-04-20 Uniondale, NY, USA
Nassau Veterans Memorial Coliseum
Madly in Anger with the World Tour
1985-02-02 Cleveland, OH, USA
Variety Theatre
Ride The Lightning Tour
1985-01-25 New York, NY, USA
L'Amour
Ride The Lightning Tour
1985-01-13 Baltimore, MD, USA
Coast to Coast
Ride The Lightning Tour
1984-12-20 London, England
Lyceum
Bang That Head That Doesn't Bang Tour
1984-12-16 Helsinki, Finnland
Kulttuuritalo
Bang That Head That Doesn't Bang Tour
1984-12-15 Nivala, Finnland
Tuiskula
Bang That Head That Doesn't Bang Tour
1984-12-12 Stockholm, Schweden
Göta Lejon
Bang That Head That Doesn't Bang Tour
1984-12-11 Kopenhagen, Dänemark
Saga
Bang That Head That Doesn't Bang Tour
1984-12-09 Hamburg, Deutschland
Markthalle
Bang That Head That Doesn't Bang Tour
1984-12-08 Osnabrück, Deutschland
Halle Gartlage
Bang That Head That Doesn't Bang Tour
1984-12-07 Amsterdam, Holland
Paradiso
Bang That Head That Doesn't Bang Tour
1984-12-05 Köln, Deutschland
Stadthalle Mülheim
Bang That Head That Doesn't Bang Tour
1984-12-04 Sindelfingen, Deutschland
Ausstellungshalle
Bang That Head That Doesn't Bang Tour
1984-12-03 Mannheim, Deutschland
Kulturhaus
Bang That Head That Doesn't Bang Tour
1984-12-02 Neunkirchen am Brand, Deutschland
Hemmerleinhalle
Bang That Head That Doesn't Bang Tour
1984-12-01 Mainz, Deutschland
Elzer Hof
Bang That Head That Doesn't Bang Tour
1984-11-30 Zürich, Schweiz
Volkshaus Zürich
Bang That Head That Doesn't Bang Tour
1984-11-27 Mailand, Italien
Teatro Tenda
Bang That Head That Doesn't Bang Tour
1984-11-25 Nice, Frankreich
Théâtre de Verdure
Bang That Head That Doesn't Bang Tour
1984-11-24 Montpellier, Frankreich
Grand Odeon
Bang That Head That Doesn't Bang Tour
1984-11-23 Bordeaux, Frankreich
Salle des Fêtes du Grand Parc
Bang That Head That Doesn't Bang Tour
1984-11-22 Toulouse, Frankreich
Le Riff
Bang That Head That Doesn't Bang Tour
1984-11-21 Marseille, Frankreich
Stadium
Bang That Head That Doesn't Bang Tour
1984-11-20 Villeurbanne, Frankreich
Palais D'Hiver
Bang That Head That Doesn't Bang Tour



40 von 87 Metallica Konzerte ausgewählt.

KOMMENTARE