• sag mal wieviele unterschiedliche Gitarren spuren sind das bei min. 1:30? Drei oder? super und was spielt James da? kann man alles so schlecht raushören, find ich

  • Meinst Du den Akustik-Part?
    Das geht so
    ---------------------------------------------------1----------------------0--
    ------------------------030--030------------------1----------------0--------0-
    ------0--7------0----------4------0------0----------0-------4-0--------------
    ---7---------7------5------------------3-------------------2-------------------
    5---------------------------------------------------------------------------------
    -----------------------------------------------------------------------------------


    Hört sich aber etwas seltsam an ohne die andere SPur.

  • ich ha da andere tabs
    da steht
    3a) James
    e--------------------------------1------------0 r ----
    B------------------------------1---1------0---- e ----
    G------0-7----7-7-7----------0----------0---0-- p ----
    D----7--------------7-0-5--3----------2-------- e ----
    A--5------------------------------------------- a -3-2
    E---------------------------------------------- t ----
    bridge (more clean)


    3b) Kirk (James accoustic on album version)
    e----------------------------------------------0
    B----------------------------------------------0
    G------0-7--9--7-9--7-5-4--2-2-4-5--4---4---4---
    D----7------10-9-10-9-7-5--3-3-5-7--5---5---5---
    A--5----------------------------------7---7-----
    E-----------------------------------------------


    3c) Kirk after repeat
    e-----------------------------------------------
    B-----------------------------------------------
    G------0-7--9--7-9--7-5-4--2-2-4-5--------------
    D----7------10-9-10-9-7-5--3-3-5-7--7-5---------
    A--5--------------------------------7-7------3-2
    E-----------------------------------------------

  • SCHÖÖÖÖN"dIesn satz ich wil Das aba können würd ich gern mal von den trantütten in der stunde hören welch un gewohnter klang für meine durchendloses under the bridge und lady in black geschrammel geschädigte ohren
    ein segn :bier: :D

  • ach dave, bei deinen tabs ist da was verrutscht :D
    ---
    -1-
    -1-
    ---
    ---
    ---
    stimmt ned
    wenn dann
    -----
    -1---
    ---1-
    -----
    -----
    -----

Participate now!

Don’t have an account yet? Register yourself now and be a part of our community!