Seek & Destroy

  • STIMMEN DIE TABZ?


    E|----------------------------------------------------------------------------------
    B|----------------------------------------------------------------------------------
    G|-------7H8-7----------------------------5----------------------------------------
    D|--------------------7H8-7---------5---------7------------------------------------
    A|--0-0----------0-----------0-8-7----7--------------------------------------------
    E|----------------------------------------------------------------------------------


    RESPEKTIERE MEINE
    southp25.gif
    AUTHORITÄÄÄÄÄÄÄÄÄÄÄÄ

    Hjálpi mér svá Njörðr ok Freyr ok hinn almáttki Áss

  • kann aber irgendiwe nicht sein... weil das klingt irgendwie beschissen, egal wie schnell ichs spiel


    RESPEKTIERE MEINE
    southp25.gif
    AUTHORITÄÄÄÄÄÄÄÄÄÄÄÄ

    Hjálpi mér svá Njörðr ok Freyr ok hinn almáttki Áss

  • HI DENK DIR NIX
    bei mir sin ständig welche und sagen die tabs würden net stimmen aba dann übens sie und noch mehr..und auf einmal hört sichs so an wie sichs ghört nur mut :)

  • OK.. geb mein Bestes.


    Nur eins.. irgendwie klingen die 7H8 wie Moll und bei Kirk Hammett klingen die wie Dur... woran kann das liegen?


    RESPEKTIERE MEINE
    southp25.gif
    AUTHORITÄÄÄÄÄÄÄÄÄÄÄÄ

    Hjálpi mér svá Njörðr ok Freyr ok hinn almáttki Áss

  • hm.. ich weiss nicht.. das könnte schon passen.. jeztzt wirds langsam


    das hier
    E|-------------------------------
    B|------------------------------
    G|-------------------------5--
    D|---------5---------7--------
    A|-0-8-7----7---------------
    E|----------------------------


    muss saumäßig schnell gehen, dann hört sich schon so an!


    RESPEKTIERE MEINE
    southp25.gif
    AUTHORITÄÄÄÄÄÄÄÄÄÄÄÄ

    Hjálpi mér svá Njörðr ok Freyr ok hinn almáttki Áss

  • also kannst mir glauben das es stimmt, der letzte teil, den den du da gerade geschrieben hast, hat mir anfangs auch leichte Probleme bereitet, aber er stimmt

  • ach ja hab mich da übrigens verschrieben.. der geht so
    E|---------------------------
    B|---------------------------
    G|-----------------5--------
    D|---------5---------7------
    A|-0-8-7----7---------------
    E|---------------------------


    RESPEKTIERE MEINE
    southp25.gif
    AUTHORITÄÄÄÄÄÄÄÄÄÄÄÄ

    Hjálpi mér svá Njörðr ok Freyr ok hinn almáttki Áss

  • Glaub ich dir... ach ja Newsted.. mach ma dein ICQ an...


    RESPEKTIERE MEINE
    southp25.gif
    AUTHORITÄÄÄÄÄÄÄÄÄÄÄÄ

    Hjálpi mér svá Njörðr ok Freyr ok hinn almáttki Áss

Participate now!

Don’t have an account yet? Register yourself now and be a part of our community!