Imperium Riff(Machine Head)

  • Also ich übe schon seit langer Zeit Imperium von Machine Head.
    Dieser eine Thrashige Part bei circa 4,50 Minuten,den kriege ich nicht ganz in orginaler Geschwindigkeit hin und wenn ich es schaffe treff ich manche Saiten nicht.Gibt es da ihrgendwelche Tricks bei???
    Ich weiss dass der Song nicht schwer ist nur diese eine Part geht ordentlich in die Arme.


    |---------------------------------|
    |---------------------------------|
    |------------------5---4----------|
    |------2-------------------4---5--|
    |------------5--------------------|
    |--2-2---2-2---2-2---2---2---2----| x 2
    P.M.- - - - - - - -



    |---------------------------------|
    |---------------------------------|
    |------------------4---2----------|
    |------5-----4-------------5---4--|
    |--0-0---0-0---0-0---0---0---0----|
    |---------------------------------|
    |P.M.- - - - - - - -



    |-----------------------------------|
    |------------------5-3-----3--------|
    |----------------------5-4---5-4-2--|
    |------5-----4----------------------|
    |--3-3---3-3---3-3------------------|
    |-----------------------------------|
    P.M.- - - - -



    Guitar 1 (third time)
    |-----------------------------------|
    |------------------6-5-----5--------|
    |----------------------7-5---7-5-4--|
    |------5-----4----------------------|
    |--3-3---3-3---3-3------------------|
    |-----------------------------------|
    P.M.- - - - -








    (Fourth time)
    Guitar 1
    |-------------------------------------------------------------------|
    |------------------8-7-5---7-5-----5--------------------------------|
    |------------------------7-----7-5---7-5-4-7-5-4---5-4-----4--------|
    |------5-----4-----------------------------------7-----7-5---7-5-4--|
    |--3-3---3-3---3-3--------------------------------------------------|
    |-------------------------------------------------------------------|
    |P.M.- - - - -
    | Guitar 2
    |-------------------------------------------------------------------|
    |------------------5-3-----3----------------------------------------|
    |----------------------5-4---5-4-2-5-4-2---4-2-----2----------------|
    |------5-----4---------------------------5-----5-4---5-4-2-5-4-2----|
    |--3-3---3-3---3-3-----------------------------------------------5--|
    |-------------------------------------------------------------------|
    P.M.- - - - -

  • da kann man eigentlich nur eins machen:


    viel üben! =)


    nein, ich hab mich mit den riff auch schon länger befasst. was vielleicht nicht ganz einfach ist von der E auf die D zu spielen. da muss man beim abschlag schon ein bisschen aufpassen.
    aber das ist alles übungssache. das riff macht auch einiges her wenn mans dann draufhat, ähnlich battery.
    viel erfolg!

  • danke er klappt aber schon bedeutent besser also vor ner Woche das Geheimnis ist ja nur die Geschwindigkeit.Wenn dieser kleine Part bei mir schon klappt dann klappt eigendlich der Ganze Riff:


    |---------------------------------|
    |---------------------------------|
    |------------------5---4----------|
    |------2-------------------4---5--|
    |------------5--------------------|
    |--2-2---2-2---2-2---2---2---2----| x 2
    P.M.- - - - - - - -


    sind halt blöde Saitenwechsel :D

Participate now!

Don’t have an account yet? Register yourself now and be a part of our community!