• ich bin gerade dabei,sanitarium zu spielen,doch der refrain gereitert mir probleme.
    ich weiß nicht wie ich den teil der bei sa-na und bei leave me ist spilen soll,ist auf der aunahme schlecht zu hören.hier der tab:
    Sa - na -
    --------------------------------|--------------------------------|
    --------------------------------|--------------------------------|
    --------------------5s4-----5s4-|----------------_3_-------------|
    ------------5s4-----5s4-----5s4-|----------------020-------------|
    ------------5s4-----3s2-----3s2-|--------------------3-2---------|
    0-------x-x-3s2-x-x-----x-x-----|------------------------5-3-2-3-|


    tarium leave me
    --------------------------------|--------------------------------|
    --------------------------------|--------------------------------|
    --------------------5s4-----5s4-|--------------------------------|
    ------------5s4-----5s4-----5s4-|--------------------------------|
    ------------5s4-----3s2-----3s2-|----2-2-2-2-2-2-3-2-------x-3---|
    0-------x-x-3s2-x-x-----x-x-----|--------------------3-----x-1---|



    könnt ihr mir nitte helfen?


    edit:is heir schlecht zu sehen,hier der link zum tab:http://www.mxtabs.net/tabs.php…tarium+welcome+Home,93222

  • Ich kann dir nur eins sagen das dass "s" für slide steht also musst du vom Powercord 3 5 5 auf 2 4 4 rutschnen!
    Mehr kann ich dir auch nicht sagen!!
    Ich kann Welcomehome (Sanitarium) zwar spielen aber sowas finde ich ist immer schwer zu erklären!!

  • V-------------V--------V---------v-V
    ------------------------------------------I---------------------------|
    ------------------------------------------I---------------------------|
    ------------------------5s4-----5s4-|----------------_3_------I
    2-------------5s4-----5s4-----5s4-|-------------------020---|
    2-------------5s4-----3s2-----3s2-|-----------------------3-2|
    0-------x-x-3s2-x-x-----x-x-------|----------------------------I


    Ich hab mal über die Akkorde die betont werden müssen ein V geschrieben, großes V starke Betonung kleines v weniger starke betonung.
    Es braucht etwas um den Rhythmus rauszukriegen, versuch mal ganz genau hinzuhören.

  • also wenn du schon mal in edit-manier bist lieber david, kannste doch dann auch dieses schmerzende zweite a im thread titel in ein wunderschönes i umwandeln oder? :D

    bayern.gif"Alle lästern immer über die bösen Killerspiele-Zocker, wenn ein Amoklauf ist. Aber wenn einer einen Holzblock von einer Brücke schmeißt, schreit keiner 'böse, böse Tetris-Spieler!'"

Participate now!

Don’t have an account yet? Register yourself now and be a part of our community!