wasting my hate tab

  • kann mir einer eine 100% richtige tab geben - hab schon 4 durchgekämmt aba alle passen nicht, bin aba nicht so gut dass ich die tabs verändern könnte dass sie stimmen :baby:

  • e--------------------------------------------------------------
    B--------------------------------------------------------------
    G--------------------------------------------------------------
    D--------------------------------------------------------------
    A-----------5-7-7-7p5---5-5-----5------------------------------
    E--0-0--5h7-----------7-----5h7---5-5p0h3h4h5------------------


    riff 1b
    e--------------------------------------------------------------
    B--------------------------------------------------------------
    G--------------------------------------------------------------
    D--------------------------------------------------------------
    A----------5-7-7-7p5---5-5-----5-------------------------------
    E--0-0-5h7-----------7-----5h7---5p0-5-3b4---------------------


    riff 2
    e--------------------------------------------------------------
    B--------------------------------------------------------------
    G-------7-------9----------------------------------------------
    D--7----7-------9----------------------------------------------
    A--7----5-------7----------------------------------------------
    E--5-----------------------------------------------------------


    riff 3
    e--------------------------------------------------------------
    B--------------------------------------------------------------
    G--9-9-9-8-7-7-7-7---------------------------------------------
    D--9-9-9-8-7-7-7-7-8-7-7-7-7-6-5-5-7-7-5-5-7-7-----------------
    A--7-7-7-6-5-5-5-5-8-7-7-7-7-6-5-5-7-7-5-5-7-7-----------------
    E------------------6-5-5-5-5-4-3-3-5-5-3-3-5-5-----------------


    riff 4
    e--------------------------------------------------------------
    B--------------------------------------------------------------
    G--9--9--9--9-8-7--7--7--7-8-----------------------------------
    D--9--9--9--9-8-7--7--7--7-8-----------------------------------
    A--7--7--7--7-6-5--5--5--5-6-----------------------------------
    E--------------------------------------------------------------


    riff 5
    e--------------------------------------------------------------
    B--------------------------------------------------------------
    G--7-9-7-9-7-9-7-10--------------------------------------------
    D--7-9-7-9-7-9-7-10--------------------------------------------
    A--5-7-5-7-5-7-5-8---------------------------------------------
    E--------------------------------------------------------------

  • es sind keine gravierenden fehler aber!
    riff 2 -5 gibts garnet !zumindest find ich sie net in meinem tabbuch!
    so sieht der riff nach dem vlean part aus:
    g---------------7-----9----------------7------9-----
    d---------------7-----9----------------7------9-----etc
    a---0----------5-----7----------0----5------7------
    e------------------------------------------------------


    und so würds weiter gehen!
    g----------------------------------------------------------
    d------------------------------------------------------------ etc
    a----------7-------------7-----6---------5----------------
    e------0-----------0----------------0-----------0--0--7---7--





    Odis ich kann dir ja ne kopie schicken wennst du willst

  • ja kann mich leicht bis morgen geduleden - du hast also das buch wo alle tabs für metallica von metallica bestätigt wurden oder so, richtig? also die WAHREN tabs oda? :D


    würd dich auf ein bier einladen wenn du sie mir schicken würdest! ;) :bier:


    format...hmm eigentlich egal! entscheide du - kenn mi da net so aus :baby: ...irgendetwas was ich öffnen kann bitte :D
    windows XP


    THX :bier: :headbang:

  • ich hab ja selber gefragt weil ich es net weiß!egal igrendwie bekommst du die seiten schon!
    morgen hast du sie auf jedenfall!
    wenn du noch welche brauchst oder igrnedjemand anders
    ich hab folgenden tabbücher:
    ride the lightning
    mop
    ajfa
    black album
    load
    garage inc.
    the art of jh


    also wenn sie jemand bracuht

  • mmh ich hab schon ein paar mal versucht dir die seiten zuschicken aber ich bekomm immer ne antwort vom mailer deamon also überprüfe deine e mail adresse bidde!

  • was habt ihr denn noch so für Tabbooks???
    Wir können ja die Tabbokks online stellen dann kann jeder drauf zugreifen. Webspace hab ich!!!

  • ich hab gar keine...wollte nur eine 100% richtige wasting my hate tab! aba er hat mop, ajfa, rtl glaub ich und the art of JH. aba steht eh alles oben! :D

  • ich kann dir nichts versprechen!das is verdammt viel arbeit!
    also wenn ich zeit hab nehm ich mir mal die zeit aber ich kann dir keine genauere zeit angabe geben!

Participate now!

Don’t have an account yet? Register yourself now and be a part of our community!