• Wie haben sich die Bassisten unter euch - also so Forador und Hemame(oder so ähnlich :D ) das slappen beigebracht? wie fängt man da an? :skeptisch:

    June 13, 2004 - MUNICH
    July 5, 2007 - VIENNA
    May 14, 2009 - VIENNA
    July 9, 2014 - VIENNA
    June 4, 2015 - VIENNA

  • gugg dir an wie das technisch geht und dann tuste einfach was weiß ich zum üben grund note und oktave davon spielen
    also ind 8teln sowas



    |-------------------------------------------|
    |----2--------3------------4----------3--|
    |-------------------------------------------|
    |-0-------1----------2-----------1-------|



    das dann ersma machen, wenne das sicher kannst probierste das ganze mal auf der a seite, also so:



    |----2--------3------------4----------3--|
    |-------------------------------------------|
    |-0-------1----------2-----------1-------|
    |-------------------------------------------|



    danach kansnte dann ma so 16tel kram versuchen und bla und hier und da dead notes einfügen und bla,udn irgendwann sollteste dann sowas slappn können:(is aus nem bassbuch von mir kann aber selebr nru den zweiten teil davon;)):

    G||--------------------||-----------------------7---------|
    D||--------------------||*--------------------------------|
    A||----------------5h7-||*------------x-5h7-x-x----x--5h7-|
    E||--------------------||---0-0-x-0-x---------------------|




    ----------------------7-----7h9-|----------------------7---------|
    --------------------------------|--------------------------------|
    ------------x-5h7-x-x----x------|------------x-7h5-x-x----x--5h7-|
    --0-0-x-0-x---------------------|--0-0-x-0-x---------------------|




    ------------6------7-------------||-------------------x-----------|
    --------------------------------*||*--------5--5------------------|
    ----------4----x-5----x-----7h5-*||*--5h7-x------7--x---5--7--5h0-|
    --0-0-x-0---------------5h7------||-------------------------------|




    ------------------x-------------|--------------------------------|
    --------5--5h7------5h6---------|--------5--5--------5h7---------|
    --5h7-x---------x-------5h0-----|--5h7-x------7--x-x-------------|
    ----------------------------3h0-|------------------------x-x-5h7-|




    ------------------x-------6---7--||
    --------5--5-7------6h5---------*||
    --5h7-x---------x-------4---5---*||
    ---------------------------------||

    Indoctrination since early youth
    murder of the free thinking mind
    religion the root of all evil
    the source of all suffering


    Deeper and deeper into the void
    across the wasteland of your mind
    lying to live, living their lie
    they make you betray your own kind


    The free will shall carry the day
    drop the bomb and wash the filth away


    let the napalm rain  



    :skeptisch:

  • hört sich kompliziert an :skeptisch:

    June 13, 2004 - MUNICH
    July 5, 2007 - VIENNA
    May 14, 2009 - VIENNA
    July 9, 2014 - VIENNA
    June 4, 2015 - VIENNA

Participate now!

Don’t have an account yet? Register yourself now and be a part of our community!